omg yes

(/) Slide Up  (\) Slide Down  (h) Hammer On  (p) Pull Off  (b) Bend (r) Release (v) Vibrato
E|--3--2--4--3----------1--6--4--4-------------------------------
B|--4--3--4--0----------1--8--4--4--------11--11--9---4------11--
G|--5--2--5--0----------1--7--5--5--------10--10--10--5------12--
D|--5--0--6--0----------1--8--6--5--------11--10--10--5------11--
A|--3-----6--2----------3--6--6--6----------------8---3----------
E|--------4--3----------1-----4--4--------9---11-------------11--



E|------------------------------------------------------------------------------------------
B|------------------------------------------------------------------------------------------
G|------------------------------------------------------------------------------------------
D|------------------------------------------------------------------------------------------
A|--3--3----3----3--3--4--5--5----5----5--3------------------3------------------------------
E|-------------------------------------------3--4--4----4-------4--1--3--3----3----0--1--3--
http://www.guitartabcreator.com
Guitar Tab Creator is intended to store guitar tab created through the tool. It currently does not support in-line text editing. Any text you place in here will be lost. If you need to comment on your tab, please use the "Tab Notes" section located below.