Mountains

(/) Slide Up  (\) Slide Down  (h) Hammer On  (p) Pull Off  (b) Bend (r) Release (v) Vibrato
E|--2--2--5--5--3--3--2--2--3--3--7--7--2--2--0--0--
B|--3--3--2--2--3--3--2--2--3--3--7--7--3--3--2--2--
G|--2--2--2--2--2--2--2--2--0--0--7--7--2--2--2--2--
D|--4--4--4--4--0--0--2--2--0--0--0--0--0--0--2--2--
A|--2--2--2--2--------0--0--2--2--x--x--x--x--0--0--
E|--------------------------3--3--7--7--2--2--------



E|--2--2--2--2--2--2--2--2--0--0--0--0--3--3--3--3--
B|--3--3--3--3--2--2--2--2--2--2--2--2--3--3--3--3--
G|--2--2--2--2--2--2--2--2--2--2--2--2--0--0--0--0--
D|--4--4--4--4--0--0--0--0--2--2--2--2--0--0--0--0--
A|--2--2--2--2--------------0--0--0--0--2--2--2--2--
E|--------------------------------------3--3--3--3--



E|--------------------------3--3--3--3--2--2--------
B|--2--2--2--2--3--3--3--3--3--3--3--3--3--3--2--2--
G|--2--2--2--2--2--2--2--2--0--0--0--0--2--2--2--2--
D|--2--2--2--2--0--0--0--0--0--0--0--0--0--0--2--2--
A|--0--0--0--0--x--x--x--x--2--2--2--2--------0--0--
E|--------------2--2--2--2--3--3--3--3--------------



E|--------------3--3--3--3--2--2--2--2--2--2--------
B|--3--3--3--3--3--3--3--3--3--3--3--3--3--3--2--2--
G|--2--2--2--2--0--0--0--0--2--2--2--2--2--2--2--2--
D|--0--0--0--0--0--0--0--0--0--0--0--0--0--0--2--2--
A|--x--x--x--x--2--2--2--2--------------------0--0--
E|--2--2--2--2--3--3--3--3--------------------------



E|--7--7--7--7--7--7--7--10--10--10--10--10--10--10--10--
B|--8--8--8--8--8--8--8--9---9---9---9---9---9---9---9---
G|--0--0--0--0--0--0--0--6---6---6---6---6---6---6---6---
D|--x--x--x--x--x--x--x--7---7---7---7---7---7---7---7---
A|--7--7--7--7--7--7--7--0---0---0---0---0---0---0---0---
E|--0--0--0--0--0--0--0----------------------------------



E|--2--2--2--2--2--2--2--2--2--2--2--2--2--2--2--2--
B|--3--3--3--3--3--3--3--3--3--3--3--3--3--3--3--3--
G|--2--2--2--2--2--2--2--2--2--2--2--2--2--2--2--2--
D|--4--4--4--4--0--0--0--0--4--4--4--4--0--0--0--0--
A|--2--2--2--2--------------2--2--2--2--------------
E|--------------------------------------------------



E|--3--3--3--3--3--3--3--3--12--12--12--12--12--12--12--12--
B|--3--3--3--3--3--3--3--3--10--10--10--10--10--10--10--10--
G|--0--0--0--0--0--0--0--0--11--11--11--11--11--11--11--11--
D|--0--0--0--0--0--0--0--0--0---0---0---0---0---0---0---0---
A|--2--2--2--2--2--2--2--2--0---0---0---0---0---0---0---0---
E|--3--3--3-----3--3--3--3----------------------------------
http://www.guitartabcreator.com
Guitar Tab Creator is intended to store guitar tab created through the tool. It currently does not support in-line text editing. Any text you place in here will be lost. If you need to comment on your tab, please use the "Tab Notes" section located below.