Lincy

(/) Slide Up  (\) Slide Down  (h) Hammer On  (p) Pull Off  (b) Bend (r) Release (v) Vibrato

E|--2--3--2-----2--3--2--0--
B|--3--2--3--7--3--2--3--2--
G|--2--0--2--6--2--0--2--2--
D|--0--2--4--7--0--2--4--2--
A|-----2--2--0-----2--2--0--
E|-----0-----------0--------



E|-----2-----2-------------2--
B|--3--3--3--3--3------10--3--
G|--3--2--3--2--3--12--9---2--
D|--0--0--0--0--0--9---11--0--
A|--1-----1-----1--10--0------
E|--3-----3-----3--0----------



E|--2--2-----3-------
B|--3--3--5--3----3--
G|--2--2--4--0----3--
D|--0--4--5--0----0--
A|-----2--0--2----1--
E|-----------3----3--
http://www.guitartabcreator.com
Guitar Tab Creator is intended to store guitar tab created through the tool. It currently does not support in-line text editing. Any text you place in here will be lost. If you need to comment on your tab, please use the "Tab Notes" section located below.