idee4

(/) Slide Up  (\) Slide Down  (h) Hammer On  (p) Pull Off  (b) Bend (r) Release (v) Vibrato
E|--------------------------------------------------
B|--------------------------------------------------
G|--5--5--5--5--6--6--6--6--0--0--0--0--0--0--0--0--
D|--5--5--5--5--5--5--5--5--0--0--0--0--0--0--0--0--
A|--3--3--3--3--0--0--0--0--2--2--0--4--2--2--0--4--
E|--------------------------3--3--3--5--3--3--3--5--



E|--------------------------------------------------
B|--------------------------------------------------
G|--0--0--0--0--0--0--0--0--0--0--0--0--0--0--0--0--
D|--0--0--0--0--0--0--0--0--0--0--0--0--0--0--0--0--
A|--2--2--0--4--2--2--0--4--2--2--0--4--2--2--0--4--
E|--3--3--3--5--3--3--3--5--3--3--3--5--3--3--3--5--



E|--5--5--3--3--2--2--2--2--3--3--0--0--3--3--0--0--
B|--2--2--2--2--3--3--3--3--3--3--3--3--3--3--3--3--
G|--2--2--2--2--0--0--0--0--0--0--2--2--0--0--2--2--
D|--2--2--2--2--2--2--2--2--0--0--2--2--0--0--2--2--
A|--0--0--0--0--3--3--3--3--2--2--3--3--2--2--3--3--
E|--------------------------3--3--0--0--3--3--0--0--



E|--3--3--3--3--5--5--7--5--3--3--3--2--0--0--0--0--
B|--5--5--5--5--5--5--5--5--3--3--3--3--0--0--1--0--
G|--4--4--4--4--6--6--6--6--0--0--0--0--0--0--0--0--
D|--5--5--5--5--5--5--5--5--0--0--0--0--2--2--2--2--
A|--3--3--3--3--0--0--0--0--2--2--2--2--2--2--2--2--
E|--------------------------3--3--3--3--0--0--0--0--



E|--------------------------------------------------
B|--6--6--6--6--4--4--3--3--3--3--1--1--1--1--1--1--
G|--5--5--5--5--3--3--3--3--3--3--3--3--2--2--0--0--
D|--5--5--5--5--1--1--1--1--0--0--0--0--3--3--3--3--
A|--6--6--6--6--3--3--3--3--x--x--x--x--3--3--3--3--
E|--------------1--1--1--1--3--3--3--3--1--1--1--1--



E|--------------5--7--5--2--
B|--3--7--8--3--3--7--8--3--
G|--5--7--7--5--5--7--7--0--
D|--5--5--5--4--5--5--5--4--
A|--x--0--7--5--x--0--5--5--
E|--3-----0-----3-----0-----



E|---------------------------
B|--5--5--7--7---8--5--3--3--
G|--4--4--7--7---7--7--2--2--
D|--5--5--7--10--5--5--4--0--
A|--------0--0---7--7--0--0--
E|--3--3---------0--0--------
http://www.guitartabcreator.com
Guitar Tab Creator is intended to store guitar tab created through the tool. It currently does not support in-line text editing. Any text you place in here will be lost. If you need to comment on your tab, please use the "Tab Notes" section located below.