idee2 (slecht)

(/) Slide Up  (\) Slide Down  (h) Hammer On  (p) Pull Off  (b) Bend (r) Release (v) Vibrato

E|--------------
B|--7--7--2--2--
G|--7--7--2--1--
D|--6--6--2--2--
A|--7--7--4--0--
E|--0--0--2-----



E|--2--1--1--0--3--1--1--1--
B|--3--3--3--1--3--1--3--3--
G|--2--2--2--0--0--2--2--2--
D|--0--0--3--2--0--3--3--3--
A|--------1--3--2--3--1--1--
E|--------------3--1--------
http://www.guitartabcreator.com
Guitar Tab Creator is intended to store guitar tab created through the tool. It currently does not support in-line text editing. Any text you place in here will be lost. If you need to comment on your tab, please use the "Tab Notes" section located below.