Idee1

(/) Slide Up  (\) Slide Down  (h) Hammer On  (p) Pull Off  (b) Bend (r) Release (v) Vibrato
E|--4--4--2--2--0--0--7--7--
B|--2--2--0--0--2--2--7--7--
G|--2--2--2--2--2--2--6--6--
D|--2--2--1--1--2--2--7--7--
A|--4--4--2--2--0--0--0--0--
E|--2--2--0--0--------------



E|----------------------------
B|--10--12--------5--5--7--7--
G|--9---9---8--8--6--6--6--6--
D|--11--11--7--7--6--6--7--7--
A|--9---9---9--9--x--x--x--x--
E|----------7--7--5--5--5--5--



E|----------------------------------------------------
B|--7--7--7--7--5--5--14----------14----------14------
G|--7--7--7--7--6--6------14----------14--------------
D|--7--7--6--6--7--7----------14----------14------14--
A|--5--5--7--7--0--0----------------------------------
E|----------------------------------------------------



E|-----------2--0--------2--0----2----0--
B|--7--7--5--2--0--5--2--2--0----3----2--
G|--6--7--6--2--7--6--2--2--7----2----2--
D|--7--6--7--2--6--4--2--2--6----4----2--
A|--5--7--0--4--7--5--0--4--7----2----0--
E|-----------2--0--------2--0------------



E|-----------------------
B|--7--7--2--0--5--3--2--2--
G|--6--7--2--7--6--2--2--2--
D|--7--6--2--6--4--4--2--2--
A|--5--7--4--7--5--2--0--4--
E|--------2--0-----------2--
http://www.guitartabcreator.com
Guitar Tab Creator is intended to store guitar tab created through the tool. It currently does not support in-line text editing. Any text you place in here will be lost. If you need to comment on your tab, please use the "Tab Notes" section located below.