Idee 3

(/) Slide Up  (\) Slide Down  (h) Hammer On  (p) Pull Off  (b) Bend (r) Release (v) Vibrato
E|------------------------------
B|--6--6--11--11--10--10--3--3--
G|--7--7--9---9---9---9---4--4--
D|--7--7--10--10--10--10--5--5--
A|--x--x--x---x---8---8---x--x--
E|--6--6--10--10----------3--3--



E|-------------------------------------------------------
B|-------------------------------------------------------
G|--7--7--7--12--12--12--12--7--7--7--7--12--12--12--12--
D|--7--7--7--12--12--12--12--7--7--7--7--12--12--12--12--
A|--x--x--x--x---x---x---x---x--x--x--x--x---x---x---x---
E|--6--6--6--10--10--10--10--6--6--6--6--10--10--10--10--



E|------------------------------------------------
B|------------------------------------------------
G|--7--7--7--12--12--12--12--2--2--2--7--7--7--7--
D|--7--7--7--12--12--12--12--3--3--3--6--6--6--6--
A|--x--x--x--x---x---x---x---x--x--x--7--7--7--7--
E|--6--6--6--10--10--10--10--1--1--1--0--0--0--0--



E|---------------------------
B|---------------------------
G|--7--7--9--7--10--2--3--3--
D|--7--7--7--7--10--3--3--3--
A|--x--x--x--x--x---x--x--x--
E|--6--5--8--6--10--1--3--3--



E|----------------
B|--8--7--11--10--
G|--7--5--12--12--
D|--8--7--12--12--
A|--6--5--10--10--
E|----------------



E|--------------------------------------------------
B|--------------------------------------------------
G|--------------------------------------------------
D|--------------------------------------------------
A|--------------5--5--3--1--0--0--0--0--------------
E|--3--3--3--3--------------------------1--1--1--1--
http://www.guitartabcreator.com
Guitar Tab Creator is intended to store guitar tab created through the tool. It currently does not support in-line text editing. Any text you place in here will be lost. If you need to comment on your tab, please use the "Tab Notes" section located below.