capo 2 grandaddy

(/) Slide Up  (\) Slide Down  (h) Hammer On  (p) Pull Off  (b) Bend (r) Release (v) Vibrato
E|-----------------------2--
B|-----------------------3--
G|--0--0--0--0--6--6--0--2--
D|--0--2--0--2--5--5--0--0--
A|--2--2--2--2--4--4--2-----
E|--3--0--3--0--5--5--3-----



E|--------------------------------
B|--5--5--3--3--2--2--8--7--------
G|--4--4--4--2--2--2--6--6--------
D|--0-----4--0--2--2--7--7--------
A|-----5--2-----0--0--0--0--------
E|--3--------2--------------------



E|--------------------------------------------------------------------------------------------------
B|--------------------------------------------------------------------------------------------------
G|--------------------------------------------------------------------------------------------------
D|--------------------------------------------------------------------------------------------------
A|--------------------------------------2--2--------------------------------------------5--5--------
E|--3--3--3--3--3--3--3--3--3--3--3--3--------3--2--0--0--0--0--0--0--0--0--0--0--0--0--------0--2--



E|------------------------------------------------------------------------
B|-----------------------3----7--8--12--10--------3--------7--8--7--3--1--
G|--0--0--0--0--6--7--0--2----7--9--11--9---0--0--2--------7--9--6--0--3--
D|--0--2--0--2--5--7--0--4----7--9--11--11--0--0--4--------7--9--7--0--0--
A|--2--2--2--2--4--7--2--5----5-----0---0---2--2--5--------5-----0--2--1--
E|--3--0--3--0--5--5--3----------7----------3--3--------------7-----3--3--
http://www.guitartabcreator.com
Guitar Tab Creator is intended to store guitar tab created through the tool. It currently does not support in-line text editing. Any text you place in here will be lost. If you need to comment on your tab, please use the "Tab Notes" section located below.