guitar home work row 2

[code]
(/) Slide Up (\) Slide Down (h) Hammer On (p) Pull Off (b) Bend (r) Release (v) Vibrato


E|----------------------------------------------------------0-----
B|-1----------------1---------------------1-------------------3---
G|---2----------------2---------------------2---------------------
D|----------0-------------------0---------------------0-----------
A|----------------------------------------------------------------
E|----------------------------------------------------------------



E|----------------------------------------------------------2--3---
B|-1------------------1--------------------1-----------------------
G|---2------------------2--------------------2---------------------
D|------------0-------------------0------------------0-------------
A|-----------------------------------------------------------------
E|-----------------------------------------------------------------



E|------0------------------------------------------------
B|---------------------3--------------1----------------0-
G|-------------------------------------------------------
D|-------------------------------------------------------
A|-3-----------2-------------0---------------------------
E|--------------------------------------------3----------



E|--------------------------------------
B|-0--------1------2--------3-----------
G|----------------------------------2---
D|---0--------------------------------0-
A|--------------------------------------
E|--------------------------------------
[/code]
[url]http://www.guitartabcreator.com[/url]
Guitar Tab Creator is intended to store guitar tab created through the tool. It currently does not support in-line text editing. Any text you place in here will be lost. If you need to comment on your tab, please use the "Tab Notes" section located below.