guitar home work row 1

(/) Slide Up  (\) Slide Down  (h) Hammer On  (p) Pull Off  (b) Bend (r) Release (v) Vibrato

E|-------------------------------
B|-0-------------------------0---
G|---------------0---------------
D|-------------------------------
A|-------------------------------
E|---3-------------------------3-



E|-------------------------------
B|-1-------------------------1---
G|--------------0----------------
D|-------------------------------
A|---0-------------------------0-
E|-------------------------------



E|--------------------------------
B|-3--------------------------3---
G|---------------0----------------
D|--------------------------------
A|---2--------------------------2-
E|--------------------------------



E|--------------0-------2-
B|-3----------------------
G|------------------------
D|------------------------
A|---2--------------------
E|------------------------



E|-3------------------3---------
B|------------------------------
G|----------0-----------------0-
D|---2------------------2-------
A|------------------------------
E|------------------------------



E|-2--------------------2------------
B|-----------------------------------
G|------------0--------------------0-
D|---0--------------------0----------
A|-----------------------------------
E|-----------------------------------



E|-0------------------------0----------------------------
B|---------------------------------------------------3---
G|---------------0------------------------0--------------
D|-------------------------------------------------------
A|---3------------------------3------------------------2-
E|-------------------------------------------------------
http://www.guitartabcreator.com
Guitar Tab Creator is intended to store guitar tab created through the tool. It currently does not support in-line text editing. Any text you place in here will be lost. If you need to comment on your tab, please use the "Tab Notes" section located below.