Guess Who I Saw Today

(/) Slide Up  (\) Slide Down  (h) Hammer On  (p) Pull Off  (b) Bend (r) Release (v) Vibrato

E|-----9-----------7--12--10-----10--8-----9--------------7--2--------------7---------------------
B|-----7--------6-----10---------8---------7-----------6-----3-----------6------------------------
G|-----7-----7--------10---------8---------7--------4--------2--------4---------------6--6--6-----
D|-----7--6-----------10---------8---------7-----6-----------4-----6------------------6--6--6--4--
A|--7-----------------10------8---------7--------------------2------------------------7--7--7-----
E|--------------------------------------------0-----------------0------------------5--------------



E|-----2--------
B|--5--3--------
G|--4--2--------
D|--6--4--------
A|--4--2--------
E|--------------
http://www.guitartabcreator.com
Guitar Tab Creator is intended to store guitar tab created through the tool. It currently does not support in-line text editing. Any text you place in here will be lost. If you need to comment on your tab, please use the "Tab Notes" section located below.