THing 2

(/) Slide Up  (\) Slide Down  (h) Hammer On  (p) Pull Off  (b) Bend (r) Release (v) Vibrato

E|-------------------------------------------------------------------------------
B|--7h9--9--9---------10--9---------9-----7h9--9--9-------------------7h9--9--9--
G|--7-9--9--9--9--10---------10--9-----7--7-9--9--9-------7-----7--9--7-9--9--9--
D|--7-9--9--9-----------------------------7-9--9--9--7h9-----9--------7-9--9--9--
A|--7----7--7-----------------------------7----7--7-------------------7----7--7--
E|-------------------------------------------------------------------------------



E|---------7------------------------------9/12----------10--12/14------
B|--9--10-----10--9-----9-----7--9--9--9--------10--12-------------15--
G|-------------------9-----7--7--9--9--9-------------------------------
D|----------------------------7--9--9--9-------------------------------
A|----------------------------7-----7--7-------------------------------
E|---------------------------------------------------------------------
http://www.guitartabcreator.com
Guitar Tab Creator is intended to store guitar tab created through the tool. It currently does not support in-line text editing. Any text you place in here will be lost. If you need to comment on your tab, please use the "Tab Notes" section located below.