Song1

(/) Slide Up  (\) Slide Down  (h) Hammer On  (p) Pull Off  (b) Bend (r) Release (v) Vibrato

E|-------------------------------------------------------
B|----------------------------------------------------0--
G|----------------------------------------------------2--
D|--2--2---------------------2--2---------------------2--
A|--2--2-------0h2--5p3p0h2--2--2-------0h2--5p3p0h2-----
E|--0--0--0h3----------------0--0--0h3-------------------



E|------------------------------------------
B|------------------------------------------
G|------------------------------------------
D|--2--2------------4p2p0h2--2--2-----------
A|--2--2-------0h2-----------2--2-------h---
E|--0--0--0h3----------------0--0--0--------
http://www.guitartabcreator.com
Guitar Tab Creator is intended to store guitar tab created through the tool. It currently does not support in-line text editing. Any text you place in here will be lost. If you need to comment on your tab, please use the "Tab Notes" section located below.