Song 6

(/) Slide Up  (\) Slide Down  (h) Hammer On  (p) Pull Off  (b) Bend (r) Release (v) Vibrato


E|-----------------------------------------------------
B|-----------------------------------------------------
G|-----------------------------------------------------
D|-----------4-----------------------------------------
A|-----2--------4-----2--4--2-----2--4--4--4--2-----2--
E|--4-----2--------4-----------4-----------------4-----



E|-----------------------------------------------------
B|-----------------------------------------------------
G|-----------------------------------------------------
D|-----------4-----------------------------------------
A|-----2--------4-----2--4--2-----2--4--4--4--2--6--2--
E|--4-----2--------4-----------4-----------------------



E|--7--7----------------------
B|--7--7--11--11--9--9--9--9--
G|--8--8--11--11--9--9--9--9--
D|--9--9--11--11--9--9--9--9--
A|--9--9--9---9---7--7--7--7--
E|--7--7----------------------



E|--7--7-----------------------
B|--7--7--11--11--9--9--9--11--
G|--8--8--11--11--9--9--9--11--
D|--9--9--11--11--9--9--9--11--
A|--9--9--9---9---7--7--7--9---
E|--7--7-----------------------



E|--------------------------------------------
B|--------------------------------------------
G|--6--6-----6--6-----9--9------9--9----------
D|--6--6-----6--6-----9--9------9--9----------
A|--4--4--7--4--4--7--7--7--11--7--7--11------
E|----------------------------------------11--
http://www.guitartabcreator.com
Guitar Tab Creator is intended to store guitar tab created through the tool. It currently does not support in-line text editing. Any text you place in here will be lost. If you need to comment on your tab, please use the "Tab Notes" section located below.