Other Side

(/) Slide Up  (\) Slide Down  (h) Hammer On  (p) Pull Off  (b) Bend (r) Release (v) Vibrato
E|--------------------------------------------------------------
B|--------------------------------------------------------------
G|--------7-----5--5--------------------------------------------
D|-----7-----7--------5-----------------------------------------
A|--5--------------------3--1--0-----0--1--1--------------0--3--
E|--------------------------------3-----------3--0--1--1--------



E|-----------------------------------------------------------
B|-----------------------------------------------------------
G|--------7-----5--5--7--9-----------------------------------
D|-----7-----7-----------------------7--7--------------------
A|--5-----------------------7--8--8--------8-----4--7--4--5--
E|--------------------------------------------5--------------



E|-----------------------------------------
B|-----5--6--5------------8--10--8---------
G|--7-----------7--5--10------------10--9--
D|-----------------------------------------
A|-----------------------------------------
E|-----------------------------------------



E|--------------------------------------------------------------
B|--11--10--11--10------10--13--10--11--10--10--11--10----------
G|------------------12----------------------------------12--10--
D|--------------------------------------------------------------
A|--------------------------------------------------------------
E|--------------------------------------------------------------



E|-----------------------------------5--5--5--5--
B|-----------------------------------5--5--5--5--
G|-----------------------------------6--6--6--6--
D|-----------------------------------5--5--5--5--
A|--5--3--1--0--------3--5--3--7--8--7--7--7--7--
E|--------------3--1-----------------5--5--5--5--
http://www.guitartabcreator.com
Guitar Tab Creator is intended to store guitar tab created through the tool. It currently does not support in-line text editing. Any text you place in here will be lost. If you need to comment on your tab, please use the "Tab Notes" section located below.