Blow the Horn

(/) Slide Up  (\) Slide Down  (h) Hammer On  (p) Pull Off  (b) Bend (r) Release (v) Vibrato

E|-----4-----4-----4-----4-----
B|-----5-----4-----5-----5-----
G|-----6-----6-----4-----4-----
D|-----6-----6-----6-----6-----
A|-----4-----4-----4-----7-----
E|-----------------------------



E|-----------------4-----4------------------------------0-----
B|-----------------5-----5------------------------------0-----
G|-----------------6-----4-----6-----8-----9-----11-----1-----
D|-----2-----6-----6-----6------------------------------2-----
A|-----4-----7-----4-----7-----4-----6-----7-----9------2-----
E|------------------------------------------------------0-----



E|--4--4--4--4--4--4--4--4--0--
B|--5--5--4--4--5--5--7--7--0--
G|--6--6--6--6--4--4--4--4--1--
D|--6--6--6--6--6--6--6--6--2--
A|--4--4--4--4--4--4--4--4--2--
E|--------------------------0--
http://www.guitartabcreator.com
Guitar Tab Creator is intended to store guitar tab created through the tool. It currently does not support in-line text editing. Any text you place in here will be lost. If you need to comment on your tab, please use the "Tab Notes" section located below.