Tab 9

(/) Slide Up  (\) Slide Down  (h) Hammer On  (p) Pull Off  (b) Bend (r) Release (v) Vibrato


E|--------------------
B|--------------------
G|--------------------
D|--6--7--8--6--5--4--
A|--6--7--8--6--5--4--
E|--6--7--8--6--5--4--



E|--------------------
B|--------------------
G|--------------------
D|--6--7--8--6--5--4--
A|--6--7--8--6--5--4--
E|--6--7--8--6--5--4--



E|------------------------
B|------------------------
G|------------------------
D|--6--3--10--6--5--4--3--
A|--6--3--10--6--5--4--3--
E|--6--3--10--6--5--4--3--
http://www.guitartabcreator.com
Guitar Tab Creator is intended to store guitar tab created through the tool. It currently does not support in-line text editing. Any text you place in here will be lost. If you need to comment on your tab, please use the "Tab Notes" section located below.