Tab 8

(/) Slide Up  (\) Slide Down  (h) Hammer On  (p) Pull Off  (b) Bend (r) Release (v) Vibrato

E|----------------------------------------------------
B|----------------------------------------------------
G|----------------------------------------------------
D|--10--10--10--8--8--8--9--9--9--12--12--12--12--12--
A|--8---8---8---6--6--6--7--7--7--10--10--10--10--10--
E|--8---8---8---6--6--6--7--7--7--10--10--10--10--10--



E|-------------------------------
B|-------------------------------
G|-------------------------------
D|--13--14--16--13--11--9--7--8--
A|--11--12--14--11--9---7--5--6--
E|--11--12--14--11--9---7--5--6--



E|-------------------
B|-------------------
G|-------------------
D|--8--10--12--0--7--
A|--6--8---10--0--7--
E|--6--8---10--0--7--
http://www.guitartabcreator.com
Guitar Tab Creator is intended to store guitar tab created through the tool. It currently does not support in-line text editing. Any text you place in here will be lost. If you need to comment on your tab, please use the "Tab Notes" section located below.