Tab 7

(/) Slide Up  (\) Slide Down  (h) Hammer On  (p) Pull Off  (b) Bend (r) Release (v) Vibrato


E|----------------------------
B|----------------------------
G|----------------------------
D|--9--5--7--11--13--9--5--7--
A|--9--5--7--11--13--9--5--7--
E|--9--5--7--11--13--9--5--7--



E|--------------------------------
B|--------------------------------
G|--------------------------------
D|--9--12--15--13--11--9--12--15--
A|--9--12--15--13--11--9--12--15--
E|--9--12--15--13--11--9--12--15--
http://www.guitartabcreator.com
Guitar Tab Creator is intended to store guitar tab created through the tool. It currently does not support in-line text editing. Any text you place in here will be lost. If you need to comment on your tab, please use the "Tab Notes" section located below.