Tab 5

(/) Slide Up  (\) Slide Down  (h) Hammer On  (p) Pull Off  (b) Bend (r) Release (v) Vibrato


E|-----------------------
B|-----------------------
G|----------------8--10--
D|--8--10--11--8--8--10--
A|--8--10--11--8--6--8---
E|--6--8---9---6---------



E|-----------------------
B|-----------------------
G|----------------8--10--
D|--8--10--11--8--8--10--
A|--8--10--11--8--6--8---
E|--6--8---9---6---------



E|------------------------
B|------------------------
G|------------------------
D|--8--10--11--8--14--12--
A|--8--10--11--8--14--12--
E|--6--8---9---6--12--10--
http://www.guitartabcreator.com
Guitar Tab Creator is intended to store guitar tab created through the tool. It currently does not support in-line text editing. Any text you place in here will be lost. If you need to comment on your tab, please use the "Tab Notes" section located below.