Tab 4

(/) Slide Up  (\) Slide Down  (h) Hammer On  (p) Pull Off  (b) Bend (r) Release (v) Vibrato


E|--------------------------------------
B|--------------------------------------
G|--------------------------------------
D|--------------------------10--10--10--
A|--10--11--10--11--10--13--10--10--10--
E|--------------------------10--10--10--



E|--------------------------------------
B|--------------------------------------
G|--------------------------------------
D|--------------------------10--10--10--
A|--10--11--10--11--10--15--10--10--10--
E|--------------------------10--10--10--



E|-----------------------------------------------------------------------
B|-----------------------------------------------------------------------
G|-----------------------------------------------------------------------
D|------------------7------------------5------------------3--3--3--3--3--
A|--10--11--10--11--7--10--11--10--11--5--10--11--10--11--3--3--3--3--3--
E|------------------7------------------5------------------3--3--3--3--3--
http://www.guitartabcreator.com
Guitar Tab Creator is intended to store guitar tab created through the tool. It currently does not support in-line text editing. Any text you place in here will be lost. If you need to comment on your tab, please use the "Tab Notes" section located below.