Tab 3

(/) Slide Up  (\) Slide Down  (h) Hammer On  (p) Pull Off  (b) Bend (r) Release (v) Vibrato


E|----------------------------------------------------------------------------------------
B|----------------------------------------------------------------------------------------
G|----------------------------------------------------------------------------------------
D|----------------------------------------------------------------------------------------
A|--------------------------3--3--3--3--3--3----7--7--7--7--7--7--5--5--------------------
E|--4--4--4--4--4--4--6--6----------------------------------------------2--2--2--2--2--2--



E|----------------------------------------------------------------------------------------
B|----------------------------------------------------------------------------------------
G|----------------------------------------------------------------------------------------
D|----------------------------------------------------------------------------------------
A|--------------------------3--3--3--3--3--3----7--7--7--7--7--7--5--5--------------------
E|--4--4--4--4--4--4--6--6----------------------------------------------2--2--2--2--2--2--



E|---------------------------------------------------------------------------------------------------
B|---------------------------------------------------------------------------------------------------
G|---------------------------------------------------------------------------------------------------
D|---------------------------------------------------------------------------------------------------
A|--------------------------3--3--3--3--3--3----7--7--7--7--7--7--9--9--10--10--10--10--10--8--6--4--
E|--4--4--4--4--4--4--6--6---------------------------------------------------------------------------
http://www.guitartabcreator.com
Guitar Tab Creator is intended to store guitar tab created through the tool. It currently does not support in-line text editing. Any text you place in here will be lost. If you need to comment on your tab, please use the "Tab Notes" section located below.