Tab 2

(/) Slide Up  (\) Slide Down  (h) Hammer On  (p) Pull Off  (b) Bend (r) Release (v) Vibrato


E|-----------------------------------
B|-----------------------------------
G|-----------------------------------
D|--------------------------5--------
A|---------------3----7--6-----5--4--
E|--4----5--7------------------------



E|-----------------------------------
B|-----------------------------------
G|-----------------------------------
D|--------------------------5--------
A|---------------3----7--6-----5--4--
E|--4----5--7------------------------



E|------------------------------------
B|------------------------------------
G|------------------------------------
D|--------------------------8--10--9--
A|---------------3----7--9------------
E|--4----5--7-------------------------



E|------------------------------------
B|------------------------------------
G|------------------------------------
D|--------------------------8--10--9--
A|---------------3----7--9------------
E|--4----5--7-------------------------
http://www.guitartabcreator.com
Guitar Tab Creator is intended to store guitar tab created through the tool. It currently does not support in-line text editing. Any text you place in here will be lost. If you need to comment on your tab, please use the "Tab Notes" section located below.