Tab 1

(/) Slide Up  (\) Slide Down  (h) Hammer On  (p) Pull Off  (b) Bend (r) Release (v) Vibrato


E|----------------------
B|----------------------
G|--6--8--12--10--8--5--
D|--6--8--12--10--8--5--
A|--4--6--10--8---6--3--
E|----------------------



E|----------------------------
B|----------------------------
G|--6--8--12--14--15--13--11--
D|--6--8--12--14--15--13--11--
A|--4--6--10--12--13--11--9---
E|----------------------------
http://www.guitartabcreator.com
Guitar Tab Creator is intended to store guitar tab created through the tool. It currently does not support in-line text editing. Any text you place in here will be lost. If you need to comment on your tab, please use the "Tab Notes" section located below.