S.S. - Spiritual Bond section 2

(/) Slide Up  (\) Slide Down  (h) Hammer On  (p) Pull Off  (b) Bend (r) Release (v) Vibrato
E|-----------0--------0--1--0-----0--------------------------5-----------------5--7------------------
B|-----1--3--1--1--3-----------3--------------1--3--1--0--1--5--------------5-----7--10-----8--7--8--
G|--0--------0-----------1-----1-----------0-----0-----------5-----2-----5--------8---------8--8--9--
D|-----------2-----------2-----2--------2--------0--------------------4-----------7------------------
A|-----------3-----------2-----------0-----------3------------------------------------------------7--
E|-----------------------------0-----------------3-----------2---------------------------7-----------



E|--------------------------------0-----------------0--5--------------------------------------------
B|--------8--------8--8-----1--3--1--3--1--0--1--3-----4--4-----3--4--3--1--------0--1--3-----1-----
G|-----7--------6--------0--1-----0--------------------4--------4--4--4--2--------------------------
D|--9--------8--------------3--------------------------------------------------2-----------2--------
A|--------6-----------5-----------3--------------------2--------------0-----0-----------------------
E|--------------------------3--------------------------------0--------------------------3-----------



E|-----------------5--------5-----------------------------3-----------3--2--3-----------1--0-----
B|-----0-----1-----5-----5-----3--------------0--1--3--0--------0--3-----------3--0-----3--------
G|-----------------5--5-----------5--4--2-----2-----------------------------------------2--------
D|--2-----2-----2--3-----------------------------------------2--------------------------------1--
A|-----------------------------------------------------------------------------------0-----------
E|-----------------------------------------1-----------------------------------------------------



E|-----0--1--------------0--------------------------
B|--4-----------1--------0--3--1--0--0--------0--1--
G|--2-----------2--1--2--1-----------1-----1-----0--
D|-----------0-----------3-----------3--3--------2--
A|-----------------------------------3-----------3--
E|-----------------------3--------------------------
http://www.guitartabcreator.com
Guitar Tab Creator is intended to store guitar tab created through the tool. It currently does not support in-line text editing. Any text you place in here will be lost. If you need to comment on your tab, please use the "Tab Notes" section located below.