S.S. - Spiritual Bond rev 1

(/) Slide Up  (\) Slide Down  (h) Hammer On  (p) Pull Off  (b) Bend (r) Release (v) Vibrato
E|-----------------------------------------------------------5-----5--7------------------------
B|-----------5--5--5--6--5--------5-----------------------------5-----7--10--8--7--8--------8--
G|-----5--7-----5-----7--------7-----5-----4--5--7--5--4--5-----5-----8------------------7-----
D|--5-----------------7-----6--------7--7--------------------4--------7---------------9--------
A|---------------------------------------------------------------------------------------------
E|---------------------------------------------------------------------------------------------



E|-----------------------------------------------------------5-----------------------------------
B|--------8-----8-----6-----5-----------5-----------------5-----4-----------3--4--3--1--------0--
G|-----6--------7-----------4-----5--7-----------4--5--7-----------5--------4--4--4--2-----2-----
D|--8--------8--7--7-----7--6--5-----------5--7-----------------------4--3--------------2--------
A|-----------------------------------------------------------------------------------------------
E|-----------------------------------------------------------------------------------------------



E|--------0--------------5-----------------5-----------------------------------------------------
B|--1--3-----3--1--0--1-----------5--3-----------------------------------8--------8--7-----8-----
G|-----------------------------5--------5-----5--4-----5-----7-----4-----------7-----------------
D|--------------------------3--------------------7-----7-----7-----7--------9-----------9-----9--
A|--------------------------------------------------6-----6-----6-----6--------------------------
E|-----------------------------------------------------------------------------------------------



E|--------------------------------------------------------------------
B|--6-----5-----4-----5--6--------8--5--6-----5-----------------------
G|--6-----6-----6-----6-----5-----------------4-----7--5--4--4--9--5--
D|-----5-----5-----5-----------0-----------0--6--6-----6--------6--5--
A|-----------------------------------------------------5--------8--7--
E|--------------------------------------------------------------8--8--
http://www.guitartabcreator.com
Guitar Tab Creator is intended to store guitar tab created through the tool. It currently does not support in-line text editing. Any text you place in here will be lost. If you need to comment on your tab, please use the "Tab Notes" section located below.