S.S.-S.B. section 4

(/) Slide Up  (\) Slide Down  (h) Hammer On  (p) Pull Off  (b) Bend (r) Release (v) Vibrato
E|------8--7----------------7--5-----------5--3-----------------------3--------------------------
B|---------10--10--9--8--------7--8--7--------5--6-----------5--4--------3--6-----5--------------
G|---------10------8-----------9-----6--------7-----6--5--4-----------------5--------------7--5--
D|--10-------------------9--------------7--------------------------5--------5--5-----------------
A|--------------------------------------------------------------------------3-----5--9--6--------
E|-----------------------------------------------------------------------------------------------



E|-----8--7------------8--7--5--------------6--5--------------0-----1--0-----------------1--0-----
B|--8-----8-----10-----9--8--5-----8--------5--4--8--6--------0--3--1-----3-----------3--------3--
G|--------7-----9------9-----7-----7--------6-----7-----1--2--1--------------------1--------------
D|--------9--7------7-----------5-----5-----------7-----------3-----------------3-----------------
A|--7-----8---------------8--7-----------------6--5--------------------------3--------------------
E|---------------------7--------------------5-----------------3-----------------------------------



E|-----------------------------
B|--------------3-----------1--
G|--0--1--0--------------0-----
D|-----------3--------2--------
A|-----------------3-----------
E|-----------------------------
http://www.guitartabcreator.com
Guitar Tab Creator is intended to store guitar tab created through the tool. It currently does not support in-line text editing. Any text you place in here will be lost. If you need to comment on your tab, please use the "Tab Notes" section located below.