S.S.-S.B. section 3

(/) Slide Up  (\) Slide Down  (h) Hammer On  (p) Pull Off  (b) Bend (r) Release (v) Vibrato
E|------8--7---------------------7---------------------5--------------------3--------------------
B|---------8-----10-----9--8--------10-----8--7--6--------8-----6--5--4--------6-----5-----------
G|---------7--7------7--8--8--------7------7--6--6--------7-----5--4--4--------5-----------7--5--
D|--10-----9------------------9-----9---9-----------7-----7--7-----3--3--5-----5--5--------------
A|---------8------------------------7---------------------5--------------------3-----5--8--6-----
E|----------------------7---------------------5--------------------3-----------------------------



E|-----8--7------------8--7--5-----------6--5-----------------1--0-----------------
B|--8-----8-----10-----7--8--7--------8--5--5--8-----6--0--3--------3--------3--1--
G|--------7-----9------8-----7--7-----7--6--5--7--5-----0-----------------1-----0--
D|--------9--7------7--7-----------5-----------7--------3-----------3--3--------2--
A|--7-----8------------------7-----------------5--------------------3-----------3--
E|---------------------7-----------------5--------------3--------------------------
http://www.guitartabcreator.com
Guitar Tab Creator is intended to store guitar tab created through the tool. It currently does not support in-line text editing. Any text you place in here will be lost. If you need to comment on your tab, please use the "Tab Notes" section located below.