Sagisu Shirou - Spiritual Bond

(/) Slide Up  (\) Slide Down  (h) Hammer On  (p) Pull Off  (b) Bend (r) Release (v) Vibrato
E|-----------0--0--0--1--0--------0--------------------------5-----5--7---------------------------
B|-----1--3-----1-----3--------3-----1-----0--1--3--1--0--1-----5-----7--10--8--7--8--------8-----
G|--0-----------------2-----1--------2--2-----------------------5-----8------------------7--------
D|-----------------------------------------------------------4--------7---------------9-----------
A|------------------------------------------------------------------------------------------------
E|------------------------------------------------------------------------------------------------



E|-----------------------------------------0-----------------0--5----------------------------------
B|--------8-----8--8-----6-----5-----1--3-----------0--1--3--------4-----------3/4--3--1--------0--
G|-----6-----------7-----------4--0-----------0--2--------------------5--------4----4--2-----2-----
D|--8--------8-----7--7-----7--6-----------------------------------------4--3-------------2--------
A|-------------------------------------------------------------------------------------------------
E|-------------------------------------------------------------------------------------------------



E|--------0--------------5-----------------5-----------------------------3--------3--2-----3-----
B|--1--3-----3--1--0--1-----------5--3-----------0-----1-----3-----0--------0--3--------0-----0--
G|-----------------------------5--------5-----5--2-----2-----2-----2-----------------------------
D|--------------------------3-----------------------1-----1-----1-----1--------------------------
A|-----------------------------------------------------------------------------------------------
E|-----------------------------------------------------------------------------------------------



E|--1-----0-----------0--1--------3--0--1-----0--------------------------0-----
B|--2-----2-----4-----2-----1-----------------0-----3--1--0--0--------------1--
G|-----0-----0-----0--------------------------1--1-----1--------------1-----0--
D|-----------------------------0-----------0-----------0-----------3--------2--
A|--------------------------------------------------------------3-----------3--
E|-----------------------------------------------------------------------------
http://www.guitartabcreator.com
Guitar Tab Creator is intended to store guitar tab created through the tool. It currently does not support in-line text editing. Any text you place in here will be lost. If you need to comment on your tab, please use the "Tab Notes" section located below.