Vinnie & The Skylarks Guitar 1


Verse

E|-------------------------------------------------------------------------------|
B|--11--11--11--11-11-11--11--11--11--11-11-11--11--11--11--11-11-11--11--11-12--|
G|--10--10--10--10-10-10--10--10--10--10-10-10--10--10--10--10-10-10--10--10-11--|
D|-------------------------------------------------------------------------------|
A|-------------------------------------------------------------------------------|
D|-------------------------------------------------------------------------------|

Chorus

E|--------------------------------------------------------|
B|--------------------------------------------------------|
G|--------------------------------------------------------|
D|--9-9-9-9-9-9-9-9-9-9-9-9----9-9-9-9-9-9-9-9-9-9-9-9----|
A|--9-9-9-9-9-9-9-9-9-9-9-9----9-9-9-9-9-9-9-9-9-9-9-9----|
D|--9-9-9-9-9-9-9-9-9-9-9-9----9-9-9-9-9-9-9-9-9-9-9-9----|

E|------------------------|
B|------------------------|
G|------------------------|
D|--5----5-5----5----5-5--|
A|--5----5-5----5----5-5--|
D|--5----5-5----5----5-5--|

Outro

E|------------------------------------------------------|
B|------------------------------------------------------|
G|------------------------------------------------------|
D|--9--9-9-9-9-9-9--9-9-9-9-9-9--9-9-9-9-9-9---9-9-9-5--|
A|--9--9-9-9-9-9-9--9-9-9-9-9-9--9-9-9-9-9-9---9-9-9-5--|
D|--9--9-9-9-9-9-9--9-9-9-9-9-9--9-9-9-9-9-9---9-9-9-5--|
Guitar Tab Creator is intended to store guitar tab created through the tool. It currently does not support in-line text editing. Any text you place in here will be lost. If you need to comment on your tab, please use the "Tab Notes" section located below.