Vinnie & The Skylarks Bass


Verse

G|---------------------------------------------|
D|---------------------------------------------|
A|---------------------------------------------|
D|--9-0-2-3-5-0-9-0-2-3-5-0-9-0-2-3-5-0-2-3-5--|

Chorus

G|-------------------------------------------------------------------------|
D|-------------------------------------------------------------------------|
A|------------------------------9----------------------------------9-------|
D||--9-9-9-9-9-9-9-9-9-9-9-9-10---10-9--9-9-9-9-9-9-9-9-9-9-9-9-10---10-9--|

G|----7-6-0---7-6-0---7-6-0---7-6-0--|
D|-----------------------------------|
A|-----------------------------------|
D|--5-------5-------5-------5--------|

Outro

G|------------------------------------------------------|
D|------------------------------------------------------|
A|------------------------------------------------------|
D|--9--9-9-9-9-9-9--9-9-9-9-9-9--9-9-9-9-9-9---9-9-9-0--|

Guitar Tab Creator is intended to store guitar tab created through the tool. It currently does not support in-line text editing. Any text you place in here will be lost. If you need to comment on your tab, please use the "Tab Notes" section located below.