Untitled Song 3


Intro

G|------------
D|------------
A|------------
D|--0-0-0-0---

G|-----------------------------------------------------------------
D|-----------------------------------------------------------------
A|------8-8-----8------8-8--------------8-8-----8------8-8---------
D|--0-0-----0-0---0-0------0-0-8-7--0-0-----0-0---0-0------0-0-5-3-

Verse

G|---------------
D|---------------
A|--5-5/8-8------
D|----------8-8--

Pre-Chorus

G|-----------
D|-----------
A|-----------
D|--12-3-8-8-

Intro

G|--------------------------------------
D|----------7-----------------7---------
A|------6/8---------------6/8-----------
D|--0-0-------0-0-8-7-0-0-------0-0-5-3-
Guitar Tab Creator is intended to store guitar tab created through the tool. It currently does not support in-line text editing. Any text you place in here will be lost. If you need to comment on your tab, please use the "Tab Notes" section located below.