Untitled Song 2

Intro

E|--------------------------------------
B|--------------------------------------
G|--------------------------------------
D|----------7-----8-7------------7-5-3--
A|------6/8-------8-7--------6/8---5-3--
D|--0-0-------0-0-8-7----0-0-------5-3--

Verse

E|-----------------------------------------
B|----3-5-3---6-8-8/10-8\6-----------------
G|--2-------5----------------3-5-3---3-5-3-
D|-------------------------3-------3-------
A|-----------------------------------------
D|-----------------------------------------

E|--------5----------8---------------------
B|----3-5---5----6-8---8-6-----------------
G|--2----------5-------------3-5-3---3---3-
D|-------------------------3-------3---2---
A|-----------------------------------------
D|-----------------------------------------

Pre-Chorus

Dmaj9 F Bbmaj9 Bbmaj9

E|--------------
B|--------------
G|-----5-10-10--
D|--14-3-10-10--
A|--12-3-8--8---
D|--12-3-8--8---

Chorus

Dmaj9 D F Fmaj9

E|----------------------------------------------------------------------
B|----------------------------------------------------------------------
G|----------------------------------------------------------------------
D|-----14----14----14----14----12----15----15----15----15----15----17---
A|----------------------------------------------------------------------
D|--12----12----12----12----12----15----15----15----15----15----15------

Bbmaj9 Gmaj9 F

E|---------
B|---------
G|--10-7-5-
D|--10-7-3-
A|--8--5-3-
D|--8--5-3-
Guitar Tab Creator is intended to store guitar tab created through the tool. It currently does not support in-line text editing. Any text you place in here will be lost. If you need to comment on your tab, please use the "Tab Notes" section located below.