Untitled Song

Intro

E|--------------------------------------
B|--------------------------------------
G|--------------------------------------
D|----------7-----8-7------------7-5-3--
A|------6/8-------8-7--------6/8---5-3--
D|--0-0-------0-0-8-7----0-0-------5-3--

Verse

D F Bb Bb

E|--------------------
B|--------------------
G|----2---5---10---10- x4
D|--------------------
A|--------------------
D|--0---3---8----8----

Chorus

Dmaj9 F Bbmaj9 Gmaj9 F

E|--------------
B|--------------
G|-----5-10-7-5-
D|--14-3-10-7-3-
A|--12-3-8--5-3-
D|--12-3-8--5-3-

E|---------------
B|---------------
G|-----17-10-7-5-
D|--14-17-10-7-3-
A|--12-15-8--5-3-
D|--12-15-8--5-3-
Guitar Tab Creator is intended to store guitar tab created through the tool. It currently does not support in-line text editing. Any text you place in here will be lost. If you need to comment on your tab, please use the "Tab Notes" section located below.