1

(/) Slide Up  (\) Slide Down  (h) Hammer On  (p) Pull Off  (b) Bend (r) Release (v) Vibrato


E|--------------------------------------
B|--------------------------------------
G|--------------------------------------
D|-----8-----------------8-----6--7--8--
A|--------8--6--8--9--------8-----------
E|--6-----------------6-----------------



E|-----------------------------------------
B|-----------------------------------------
G|-----------------6-6-6-6-8-8-8-8-6-6-6-6-
D|-6-6-6-6-8-8-8-8-------------------------
A|-----------------------------------------
E|-----------------------------------------
http://www.guitartabcreator.com
Guitar Tab Creator is intended to store guitar tab created through the tool. It currently does not support in-line text editing. Any text you place in here will be lost. If you need to comment on your tab, please use the "Tab Notes" section located below.