My Solo

(/) Slide Up  (\) Slide Down  (h) Hammer On  (p) Pull Off  (b) Bend (r) Release (v) Vibrato
E|---------------------------------3---------------------------6---------------------------
B|-----------------3------------------6--------3------------------8--------------6--8------
G|-----3-----3--5-----5--3---------------3--5-----5--3---------------7--6--5---------------
D|--5-----5-----------------5---------------------------5---------------------8------------
A|-----------------------------------------------------------------------------------------
E|-----------------------------------------------------------------------------------------



E|--------------------------------------------------3-----------------------------------
B|-----------------------------------------------------6--------------------------------
G|--------------------------------------------------------3--5--------------------------
D|-------------------------------------------3------------------------3-----------------
A|-------4/5--8------------3-----3-----3--5---------------------3--5--------------------
E|--6h8--------------3--6-----6-----6---------------------------------------------------



E|---------------------------------------------------------------------------------
B|--------------8------------------------------------------------------------------
G|-----5--6--7-----7--6--5---------------------------------------------------------
D|--8-----------------------8--------6------------3-----------3-----------3--------
A|-----------------------------6--8---------3--5-----5--3--5-----5--3--5-----5-----
E|------------------------------------------------------------------------------3--
http://www.guitartabcreator.com
Guitar Tab Creator is intended to store guitar tab created through the tool. It currently does not support in-line text editing. Any text you place in here will be lost. If you need to comment on your tab, please use the "Tab Notes" section located below.