9X76

(/) Slide Up  (\) Slide Down  (h) Hammer On  (p) Pull Off  (b) Bend (r) Release (v) Vibrato
E|--------------------------------------------------------------------------------------5p0--0-----
B|--------7-----------7-----------7-----------------------7-----------7-----------7----------------
G|--7--9-----9--7--9-----9--7--9-----9--7--7--7--7--7--9-----9--7--9-----9--7--9-----9-------------
D|-------------------------------------------------------------------------------------------------
A|-------------------------------------------------------------------------------------------------
E|-------------------------------------------------------------------------------------------------



E|--5p0--0--3p0--0--
B|------------------
G|------------------
D|------------------
A|------------------
E|------------------



E|-------------------------------------------------------------
B|-------------------------------------------------------------
G|-------------------------------------------------------------
D|-------------------------------------------------------------
A|-----------------------5h6--5-----------------------5-----5--
E|--0--0--0--0--0--0--0----------0--0--0--0--0--0--0-----0-----



E|--0--0--0--0--0--0--0--10h11--10--0--0--0--0--0--0--0--10--0--10--
B|------------------------------------------------------------------
G|------------------------------------------------------------------
D|------------------------------------------------------------------
A|------------------------------------------------------------------
E|------------------------------------------------------------------



E|-----
B|-----
G|-3-3-
D|-3-3-
A|-1-1-
E|-----



E|---------
B|---------
G|-5-5-3-3-
D|-5-5-3-3-
A|-3-3-1-1-
E|---------



E|-----
B|-----
G|-----
D|-3-5-
A|-3-5-
E|-1-3-
http://www.guitartabcreator.com
Guitar Tab Creator is intended to store guitar tab created through the tool. It currently does not support in-line text editing. Any text you place in here will be lost. If you need to comment on your tab, please use the "Tab Notes" section located below.