9X7

(/) Slide Up  (\) Slide Down  (h) Hammer On  (p) Pull Off  (b) Bend (r) Release (v) Vibrato
E|-----x--x-----x--x--------------------
B|--------x-----x--------x--------x-----
G|--7--x--x--7--x--x--7--x--7--7--x--x--
D|--x-----x-----x--x-----x-----------x--
A|--9--x--x--9--x-----9--x--9--9--x--x--
E|--------x-----x--x-----x--------x--x--



E|-------------------------------------------------
B|-------------------------------------------------
G|-8--8--8--8--9--9--9--9--10-10-10-9--11-11-11-11-
D|-x--x--x--x--x--x--x--x--x--x--x--x--x--x--x--x--
A|-10-10-10-10-11-11-11-11-12-12-12-12-13-13-13-13-
E|-------------------------------------------------



E|--------x-----
B|--------x-----
G|-----0--x-----
D|--3--5--x--4--
A|--3--5--x--4--
E|--1--3--x--2--



E|-----------
B|-----------
G|-----------
D|--3--5--x--
A|--3--5--x--
E|--1--3--x--



E|-----------------
B|-----------------
G|-----------------
D|--3--5--5--5--5--
A|--3--5--5--5--3--
E|--1--3--3--3--3--



E|-----------
B|-----------
G|--3--5--4--
D|--3--5--4--
A|--1--3--2--
E|-----------



E|--------
B|--------
G|--3--5--
D|--3--5--
A|--1--3--
E|--------



E|--------------------------
B|--------------------------
G|--3--5--5--5--5--3--------
D|--3--5--5--5--5--3--3--5--
A|--1--3--3--3--3--1--3--5--
E|--------------------1--3--



E|-----------------------------------
B|-----------------------------------
G|--------------------------------5--
D|--3--5-----------3--5-----------5--
A|--1--3-----------1--3-----------3--
E|--------0--2--3--------3--2--0--5--
http://www.guitartabcreator.com
Guitar Tab Creator is intended to store guitar tab created through the tool. It currently does not support in-line text editing. Any text you place in here will be lost. If you need to comment on your tab, please use the "Tab Notes" section located below.