Sounds at Night

(/) Slide Up  (\) Slide Down  (h) Hammer On  (p) Pull Off  (b) Bend (r) Release (v) Vibrato

(delay&chorus repeat 3x repeat all 4x
E|---------------------------------|------------------||
B|---------------------------------|------------------||
G|---------------------------------|------------------||
D|------------3(3)\2-----3\2-------|------------------||
A|----3-----3--------3p0-----3/5---|----3-----3p0h3/5-||
D|--0---3/5------------------------|--0---3/5---------||

all 2x
E|---------------------|--------------------------------------------||
B|---------------------|--------------------------------------------||
G|-------2(2)----------|-------7(7)-10-10-10-10-10-10-5-5-5--5-5-5--||
D|--2(2)-0(0)-5--------|--7(7)-5(5)-10-10-10-10-10-10-5-5-5--5-5-5--||
A|--0(0)-0(0)---3------|--5(5)-5(5)-8--8--8--8--8--8--3-3-3--3-3-3--||
D|--0(0)----------3(3)-|--5(5)------8--8--8--8--8--8--3-3-3--3-3-3--||
. . . .

(delay&chorus repeat 3x repeat all 2x
E|---------------------------------|------------------||
B|---------------------------------|------------------||
G|---------------------------------|------------------||
D|------------3(3)\2-----3\2-------|------------------||
A|----3-----3--------3p0-----3/5---|----3-----3p0h3/5-||
D|--0---3/5------------------------|--0---3/5---------||


all distortion 3x all 2x
E|---------------------------------|------------------||
B|---------------------------------|------------------||
G|---------------------------------|------------------||
D|------------3(3)\2-----3\2-------|------------------||
A|----3-----3--------3p0-----3/5---|----3-----3p0h3/5-||
D|--0---3/5------------------------|--0---3/5---------||

4x
E|----------------------||
B|----------------------||
G|----------------------||
D|--3-3-10-1010-5--8-3--||
A|--3-3-10-1010-5--8-3--||
D|--3-3-10-1010-5--8-3--||



all distortion 3x all 4x
E|---------------------------------|------------------||
B|---------------------------------|------------------||
G|---------------------------------|------------------||
D|------------3(3)\2-----3\2-------|------------------||
A|----3-----3--------3p0-----3/5---|----3-----3p0h3/5-||
D|--0---3/5------------------------|--0---3/5---------||

3x all 1x
E|-------------------------------|----------------------||
B|-------------------------------|----------------------||
G|-----5-------5-------5p2--5/5--|-----5-------5\2/5/7--||
D|--0-----3/5-----3\2------------|--0-----3/5-----------||
A|-----3-------3-------3p0--3/5--|-----3-------3p0h3/7--||
D|--0-----3/5-----3\2------------|--0-----3/5-----------||



(All Destort) 4x
E|---------------------------||
B|---------------------------||
G|---------------------------||
D|--------5------------------||
A|--0-3-3(3)-0-5-0-3-0-1-3-1-||
D|--0-3------0-5-0-3-0-1-3-1-||
. . . .


E|----------------------------------
B|----------------------------------
G|----------------------------------
D|--------------5-------------------
A|------------3(3)------------------
D|--x-x-3-x-x------x-x-5-3-x-2-3-2--



























http://www.guitartabcreator.com
Guitar Tab Creator is intended to store guitar tab created through the tool. It currently does not support in-line text editing. Any text you place in here will be lost. If you need to comment on your tab, please use the "Tab Notes" section located below.