Song 7 chorus 1

(/) Slide Up  (\) Slide Down  (h) Hammer On  (p) Pull Off  (b) Bend (r) Release (v) Vibrato


E|-----------------------|-----------------------|------------------------|
B|-----------------------|------8-----8---8---8--|------12----12--12--12--|
G|------2-----2---2---2--|--7-7-7-7-7-7-7-7-7-7--|--10101010101010101010--|
D|--3-3-3-3-3-3-3-3-3-3--|--5-5-5-5-5-5-5-5-5-5--|--8-8-8-8-8-8-8-8-8-8---|
A|--5-5-5-5-5-5-5-5-5-5--|-----------------------|------------------------|
D|-----------------------|-----------------------|------------------------|
|
|
|
E|-----------------------|-----------------------|------------------------|
B|----------------6---5--|------------8---6---5--|------------------------|
G|------------7----------|------7----------------|------------10---12--12-|
D|------7----------------|--5-5---5-5---5---5----|------8-----------------|
A|--5-5---5-5---5---5----|-----------------------|------------------------|
D|-----------------------|-----------------------|--8-8---8-8----8---8----|




E|---------------------------------|------------------------------------------------------------|
B|---------------------------------|------------------------------------------------------------|
G|---------------------------------|------------------------------------------------------------|
D|--5-5-5-5-5-5--7--7--7--7--7--7--|------------------------------------------------------------|
A|--3-3-3-3-3-3--5--5--5--5--5--5--|-0000~0000~~000--0--000000--0-0--000000--0--000--0000~~0000~|
D|--3-3-3-3-3-3--5--5--5--5--5--5--|-0000~0000~~000--0--000000--0-0--000000--0--000--0000~~0000~|
|
|
|
E|---------------------------------|------------------------------------------------------------|
B|---------------------------------|------------------------------------------------------------|
G|---------------------------------|------------------------------------------------------------|
D|--101010101010-12-12-12-12-12-12-|------------------------------------------------------------|
A|--8-8-8-8-8-8--10-10-10-10-10-10-|-0000~0000~~000--0--000000--0-0--000000--0--000--0000~~0000~|
D|--8-8-8-8-8-8--10-10-10-10-10-10-|-0000~0000~~000--0--000000--0-0--000000--0--000--0000~~0000~|



E|-----------------------------------------------------------------
B|--------------------------------------------------------3-3-3-3--
G|---------------11111111-11111111---9999-9999----7-7-7-7-2-2-2-2--
D|---------------9-9-9-9--9-9-9-9----7777-7777----5-5-5-5-0-0-0-0--
A|--0000-0000----7-7-7-7--7-7-7-7----5555-5555----3-3-3-3-1-1-1-1--
D|--0000-0000------------------------------------------------------
|
|
|
E|--
B|--
G|--
D|--
A|--
D|--



E|------------------------------------------|-------------------------0-0-0-0-0-0-0-0-|
B|--------------3-3-3-3-3-3-8-8-8-8-8-8-8-8-|-------------6-6-6-6-6-6-6-6-6-6-6-6-6-6-|
G|--9-9-9-9-9-9-2-2-2-2-2-2-7-7-7-7-7-7-7-7-|-9-9-9-9-9-9-5-5-5-5-5-5-X-X-X-X-X-X-X-X-|
D|--7-7-7-7-7-7-0-0-0-0-0-0-5-5-5-5-5-5-5-5-|-7-7-7-7-7-7-8-8-8-8-8-8-7-7-7-7-7-7-7-7-|
A|--5-5-5-5-5-5-1-1-1-1-1-1-6-6-6-6-6-6-6-6-|-5-5-5-5-5-5-5-5-5-5-5-5-5-5-5-5-5-5-5-5-|
D|------------------------------------------|-------------5-5-5-5-5-5-0-0-0-0-0-0-0-0-|









http://www.guitartabcreator.com
Guitar Tab Creator is intended to store guitar tab created through the tool. It currently does not support in-line text editing. Any text you place in here will be lost. If you need to comment on your tab, please use the "Tab Notes" section located below.