Song 7

(/) Slide Up  (\) Slide Down  (h) Hammer On  (p) Pull Off  (b) Bend (r) Release (v) Vibrato


E|---------------------------||------------------------------------|-
B|---------------------------||------------------------------------|-
G|------7h8h7----------------||-----------7h8p7p0-5h7p5p0-3h5p3p0--|-
D|--------------10---8-------||----8-10-0--------------------------|-
A|-----------------------10--||-10---------------------------------|-
D|--000-------0----0---0-----||------------------------------------|-
|
| (4x)
|
E|---------------------------||------------------------------------|-
B|---------------------------||------------------------------------|-
G|---------------------------||------------------------------------|-
D|---------------5---3-------||---3--5-0----------5-5-5-5--8-8-8-8-|-
A|------5h7p5------------5---||-5--------5-5-5-5-------------------|-
D|--000-------0----0---0-----||------------------------------------|-


E|----------||--------------------------|---------------------------||
B|----------||--------------------------|---------------------------||
G|----------||---------------7---8------|---------------------------||
D|----------||-----------5-----------10-|---------------------------||
A|--------5-||-----7--------------------|--------1-0-------------5--||
D|--000-0---||-0-0---0-0---0---0---0----|--0-0-3-----0-5-8-7-0-2----||
|
| (4x)
|
E|----------||--------------------------|---------------------------||
B|----------||--------------------------|---------------------------||
G|----------||---------------8---7------|---------------------------||
D|----------||-----------5-----------10-|---------------------------||
A|--------5-||-----7--------------------|--------1-0-------------5--||
D|--000-0---||-0-0---0-0---0---0---0----|--0-0-3-----0-5-8-7-0-2----||


E|--------------------------|-
B|----------------6---------|-
G|------------7-------7-----|-
D|------7-----------------7-|-
A|--5-5---5-5---5---5---5---|-
D|--------------------------|-
|
|
|
E|--------------------------|-------------------------
B|--------------------------|-----8-----8---8---8---8-
G|------2-----2---2---2---2-|-7-7-7-7-7-7-7-7-7-7-7-7-
D|--3-3-3-3-3-3-3-3-3-3-3-3-|-5-5-5-5-5-5-5-5-5-5-5-5-
A|--5-5-5-5-5-5-5-5-5-5-5-5-|-------------------------
D|--------------------------|-------------------------














http://www.guitartabcreator.com
Guitar Tab Creator is intended to store guitar tab created through the tool. It currently does not support in-line text editing. Any text you place in here will be lost. If you need to comment on your tab, please use the "Tab Notes" section located below.