Song 5

(/) Slide Up  (\) Slide Down  (h) Hammer On  (p) Pull Off  (b) Bend (r) Release (v) Vibrato

Gtr 2
E|--8---8-7---7-3---3-5---5-5-|--8---8-7---7-3---3-5--7-8---8-7---7-3---3-5---5-5--|
B|----5-----8-----0-----5-5-5-|----5-----8-----0----------5-----8-----0-----5-5-5--|
G|----------------------------|----------------------------------------------------|
D|--7-----5-----2-----3-------|--7-----5-----2-----3--5-7-----5-----2-----3--------|
A|----------------------------|----------------------------------------------------|
D|----------------------------|----------------------------------------------------|
| Gtr 1
E|----------------------------|----------------------------------------------------|
B|--1~~~1~--------------------|--1~~~1~-----------------1---1----------------------|
G|--2~~~~~0~~~0~0~~~0~4~~~4~4~|--2~~~~~0~~~0~0~~~0~4~~0-2-2---0---0-0---0-4---4-4--|
D|--2~2~~~0~~~~~2~~~~~3~~~3~3~|--2~2~~~0~~~~~2~~~~~3~~--2-----0-0---2-2---3-3-3-3--|
A|--0~~~~~2~2~~~2~2~~~3~3~~~~~|--0~~~~~2~2~~~2~2~~~3~~--0-----2-----2-----3--------|
E|--------3~~~~~0~~~~~1~~~~~~~|--------3~~~~~0~~~~~1~~3-------3-----0-----1--------|

Gtr 1
E|------------------------------------------|
B|-1----0-----0-----0--0-1-----0----0-----0-|
G|-2----0-----0-----0--0-2-----0----0-----4-|
D|-2----0-----2-----3--0-2-----0----2-----3-|
A|-0----2-----2-----3--2-0-----2----2-----3-|
E|------3-----0-----1--3-------3----0-----1-|
|Gtr 2
E|-8---8-7----3---3-5--7-8---8-7----3---3-5-|
B|---5----------0----------5----------0-----|
G|------------------------------------------|
D|-7-----5----2-----3--5-7-----5----2-----3-|
A|------------------------------------------|
D|------------------------------------------|

(2-3x)
E|--8---8-7---7-3---3-5---5-5-|--8---8-7---7-3---3-5---5-5--|--8---8--7---7----3---3---5--|
B|----5-----8-----0-----5-5-5-|----5-----8-----0-----5-5-5--|----5------8--------0-----5--|
G|----------------------------|-----------------------------|-----------------------------|
D|--7-----5-----2-----3-------|-----------------------------|-----------6--------2-----3--|
A|----------------------------|-----------------------------|----8------------------------|
D|----------------------------|--7-----5-----2-----3--------|--7---7---5---5---2---2---3--|


































http://www.guitartabcreator.com
Guitar Tab Creator is intended to store guitar tab created through the tool. It currently does not support in-line text editing. Any text you place in here will be lost. If you need to comment on your tab, please use the "Tab Notes" section located below.