Song 4 Random Riffs.. maybe

(/) Slide Up  (\) Slide Down  (h) Hammer On  (p) Pull Off  (b) Bend (r) Release (v) Vibrato



D |---------------------------------------------------------------------------------------------|
C |---------------------------------------------------------------------------------------------|
F#|---------------------------------------------------------------------------------------------|
C#|---------------------------------------------------------------------------------------------|
G#|-----4444-3333---------------------6666-4444-33333333-----------3333----66-44-33-44-33-11-00-|
C#|-3333----------0000-6666-8888-0000--------------------3333-1111---------00-00-00-00-00-00-00-|


D |---------------------------|-------------------------|
C |---------------------------|-------------------------|
F#|---------------------------|-------------------------|
C#|-3-6-5-0-6-8-8-6-5-5-3-1-5-|-------------------------|
G#|-3-4-3-0-6-8-6-4-3-3-3-1-3-|-00-00-00-00-00-00-00-00-|
C#|-3-----0-6-8-------3-3-1---|-00-00-00-00-00-00-00-00-|


D |--------------------------------------|-----------------------------------------|
C |--------------------------------------|-----------------------------------------|
G#|--------------------------------------|-----------------------------------------|
C#|--------------------------------------|-----------------------------------------|
A#|--------------------------------------|---------4---4-----4-------4---4-----4---|
C#|--0-0-3p0-3p0-0-3p0-0-0-3p0-3p0-0-3p0-|-3-3-3-3-4p3-4p3-3-4p3-3-3-4p3-4p3-3-4p3-|


D |---------------|-------|-----|--------------------------------|-
C |---------------|-------|-----|--------------------------------|-
G#|---------------|-------|-----|--------------------------------|-
C#|-0-------------|-------|-X//-|--------------------------------|-
A#|-0-------------|-------|-X//-|----------------------4-----4---|-
C#|-0-00000000----|-0-12//|-X//-|--0-0-0-0-3p0-0-0-0-0-4p3-0-4p3-|-

D |-------------------------|---------------------|-
C |-------------------------|---------------------|-
G#|-------------------------|---------------------|-
C#|-------------------------|---------------------|-
A#|-------------------4-----|---------------------|-
C#|-0-0-0-0-6-4-3-4-3---3-1-|-0-0-3p0-3p0-0-3p0-0-|-8888-6666-4444-3333-





















Guitar Tab Creator is intended to store guitar tab created through the tool. It currently does not support in-line text editing. Any text you place in here will be lost. If you need to comment on your tab, please use the "Tab Notes" section located below.