Song 3

(/) Slide Up  (\) Slide Down  (h) Hammer On  (p) Pull Off  (b) Bend (r) Release (v) Vibrato

| (4x) |
E|-------------||--------------------------------|----------------------------|
B|-------------||--------------------------------|----------------------------|
G|-------------||--------------------------------|----------------------------|
D|--0~~~~~~~~~~||------------------------8-----7-|----------------------------|
A|--0~~~~~~~~~~||------5-----7-----8-------------|----------------------------|
D|--0~~~~~~~~~~||--0-0---0-0---0-0---0-0---0-0---|--0-0-3-8-7-0-5-8-7-0-2-3---|


E|----------------------------------------------------------------------------|
B|----------------------------------------------------------------------------|
G|-----10~~10~~101010~~~~~12~12~121212~~~~~9~~~9~~~9~9~9~9~~~~7~~~7~~~7~7~7~7~|
D|--0~~7~~~7~~~7-7~7~~0~~~9~~9~~9-9-9~~~0~~6~~~6~~~6~6~6~6~0~~4~~~4~~~4~4~4~4~|
A|--0~~~~~~~~~~~~~~~~~0~~~~~~~~~~~~~~~~~0~~~~~~~~~~~~~~~~~~0~~~~~~~~~~~~~~~~~~|
D|--0~~~~~~~~~~~~~~~~~0~~~~~~~~~~~~~~~~~0~~~~~~~~~~~~~~~~~~0~~~~~~~~~~~~~~~~~~|

(4x) (4x)
E|--------------------------------||--------------------------------|----------------------------|
B|--------------------------------||--------------------------------|----------------------------|
G|-10---10---10-12---9---9-7-7-7--||--------------------------------|----------------------------|
D|-7----7----7--9----6---6-4-4-4--||------------------------8-----7-|----------------------------|
A|--------------------------------||------5-----7-----8-------------|----------------------------|
D|---000--000--0--000-000-0-0-0---||--0-0---0-0---0-0---0-0---0-0---|--0-0-3-8-7-0-5-8-7-0-2-3---|


E|----------------------------------------------------------------------------|
B|----------------------------------------------------------------------------|
G|-----10~~10~~101010~~~~~12~12~121212~~~~~9~~~9~~~9~9~9~9~~~~7~~~7~~~7~7~7~7~|
D|--0~~7~~~7~~~7-7~7~~0~~~9~~9~~9-9-9~~~0~~6~~~6~~~6~6~6~6~0~~4~~~4~~~4~4~4~4~|
A|--0~~~~~~~~~~~~~~~~~0~~~~~~~~~~~~~~~~~0~~~~~~~~~~~~~~~~~~0~~~~~~~~~~~~~~~~~~|
D|--0~~~~~~~~~~~~~~~~~0~~~~~~~~~~~~~~~~~0~~~~~~~~~~~~~~~~~~0~~~~~~~~~~~~~~~~~~|

(4x)
E|--------------------------------|--------------------------------------------------|
B|--------------------------------|--------------------------------------------------|
G|-10---10---10-12---9---9-7-7-7--|--------------------------------------------------|
D|-7----7----7--9----6---6-4-4-4--|-0--7--7--7-7-7--9--6--6--6-6-6-6--4--4--4-4-4-4--|
A|--------------------------------|-0--7--7--7-7-7--9--6--6--6-6-6-6--4--4--4-4-4-4--|
D|---000--000--0--000-000-0-0-0---|-0--7--7--7-7-7--9--6--6--6-6-6-6--4--4--4-4-4-4--|


E|--------------------------------------------------------------------------------------|
B|--------------------------------------------------------------------------------------|
G|--------------10~----------12~----------9~~----------7~~------------------------------|
D|-0--00--0000--7~~00--0000--9~~00--0000--6~~00--0000--4~~00----------------------------|
A|-0--00--0000--7~~00--0000--9~~00--0000--6~~00--0000--4~~00--------------7h8p7---------|
D|-0--00--0000--7~~00--0000--9~~00--0000--6~~00--0000--4~~00--9-7-6-7-6-4-------6-4-3-2-|



Guitar Tab Creator is intended to store guitar tab created through the tool. It currently does not support in-line text editing. Any text you place in here will be lost. If you need to comment on your tab, please use the "Tab Notes" section located below.