Song 2

(/) Slide Up  (\) Slide Down  (h) Hammer On  (p) Pull Off  (b) Bend (r) Release (v) Vibrato

(4x)
E|--------------------------------------------------------------|--------------------------------|
B|--------------------------------------------------------------|--------------------------------|
G|--------------------------------------------------------------|--------------------------------|
D|--------------------------------------------------------------|--------------------------------|
A|-------------------------------------------------------3h7p3--|--------------------2h3p2-2-----|
D|--0-0-0-3h7p3-0-0-0-3h7p3-0-0-0-3h7p3-0-0-0-2-3-2-5-3-5-------|--7-3-0-8-5-0-6-3-0------5-3-2--|

(2x)
E|---------------------------|--|-----------------------------------------------------------|
B|---------------------------|--|-----------------------------------------------------------|
G|---------------------------|--|-----------------------------------------------------------|
D|-----3h7h3---3h6p3-7p3-6p2-|--|-----------------------------------------------------------|
A|---------------------------|--|-----------------------------------------------------------|
D|--000-----000-----0---0----|--|-3p0-0-0-0-0-0-0-0-7p3-3-3-3-3-3-3-3-3-8p5-5-5-5-5-5-5-5-5-|


E|-----------------|-----------------------------------------------------------------------------|
B|-----------------|-----------------------------------------------------------------------------|
G|-----------------|-----------------------------------------------------------------------------|
D|-7-7-7-7-5-5-5-5-|-----------------------------------------------------------------------------|
A|-5-5-5-5-3-3-3-3-|-------------------------------------------------------------5-5-5-5-3-3-3-3-|
D|-5-5-5-5-3-3-3-3-|-3p0-0-0-0-0-0-0-0-0-7p3-3-3-3-3-3-3-3-3-6p2-2-2-2-2-2-2-2-2-3-3-3-3-2-2-2-2-|


E|-----------------------------------|---------------------------|---------------------------------|
B|-----------------------------------|---------------------------|---------------------------------|
G|-----------------------------------|---------------------------|---------------------------------|
D|---------------------------------2-|----3h7p3---3h6p3-7p3-6p2--|-7-7-7-7-5-5-5-5-----------------|
A|---------------------------3-------|---------------------------|-5-5-5-5-3-3-3-3-5-5-5-5-3-3-3-3-|
D|-8p5p0-7p3p0-6p2p0-2-3-2-5---3-5---|-000-----000-----0---0-----|-5-5-5-5-3-3-3-3-3-3-3-3-2-2-2-2-|


E|------------------------------------------------------------|-----------------|
B|------------------------------------------------------------|-----------------|
G|------------------------------------------------------------|-----------------|
D|------------------------------------------------------------|-7-7-7-7-5-5-5-5-|
A|------------------------------------------------------------|-5-5-5-5-3-3-3-3-|
D|--3p0-0-0-0-0-0-0-0-7p3-3-3-3-3-3-3-3-3-8p5-5-5-5-5-5-5-5-5-|-5-5-5-5-3-3-3-3-|


E|-----------------------------------------------------------------------------|
B|-----------------------------------------------------------------------------|
G|-----------------------------------------------------------------------------|
D|-----------------------------------------------------------------------------|
A|-------------------------------------------------------------5-5-5-5-3-3-3-3-|
D|-3p0-0-0-0-0-0-0-0-0-7p3-3-3-3-3-3-3-3-3-6p2-2-2-2-2-2-2-2-2-3-3-3-3-2-2-2-2-|


E|-
B|-
G|-
D|-
A|-
D|-



















http://www.guitartabcreator.com
Guitar Tab Creator is intended to store guitar tab created through the tool. It currently does not support in-line text editing. Any text you place in here will be lost. If you need to comment on your tab, please use the "Tab Notes" section located below.