Song 1

(/) Slide Up  (\) Slide Down  (h) Hammer On  (p) Pull Off  (b) Bend (r) Release (v) Vibrato

E|-------------|----------|-------------|------------------|-------------|
B|-------------|----------|-------------|------------------|-------------|
G|-------------|----------|-------------|------------------|-------------|
D|-------7h8p7-|----------|------10p8-8-|------------------|------10p8-8-|
A|---0-0-------|--8-8p7-7-|--8-8--------|--8-8p7-5-8-8p7-3-|--8-8--------|
D|--0-0-0------|-0-0---0--|-8-8-8----8--|-0-0---0-0-0---0--|-8-8-8----8--|

(1st ending) (2nd ending)(2x)
E|---------------|------------------------|---------------------|-------------------------|
B|---------------|------------------------|---------------------|-------------------------|
G|---------------|------------------------|---------------------|-------------------------|
D|---------------|-12-12-121212-10-101010-|-10-10101010-5-5-5-5-|-10-10101010-12-12-12-12-|
A|--8-7-5-7-5-3--|-8--8--8-8-8--7--7-7-7--|-8--8-8-8-8--3-3-3-3-|-8--8-8-8-8--10-10-10-10-|
D|-0-0-0-0-0-0-0-|-0--0--0-0-0--0--0-0-0--|-8--8-8-8-8--3-3-3-3-|-8--8-8-8-8--10-10-10-10-|


(4x) (4x) (2x) (2x)
E|----------|-------------|------------------|-------------|---------------|
B|----------|-------------|------------------|-------------|---------------|
G|----------|-------------|------------------|-------------|---------------|
D|----------|------10p8-8-|------------------|------10p8-8-|---------------|
A|--8-8p7-7-|--8-8--------|--8-8p7-5-8-8p7-3-|--8-8--------|--8-7-5-7-5-3--|
D|-0-0---0--|-8-8-8----8--|-0-0---0-0-0---0--|-8-8-8----8--|-0-0-0-0-0-0-0-|

(1st ending) (2nd ending)(2x)
E|------------------------|---------------------|-------------------------|
B|------------------------|---------------------|-------------------------|
G|------------------------|---------------------|-------------------------|
D|-12-12-121212-10-101010-|-10-10101010-5-5-5-5-|-10-10101010-12-12-12-12-|
A|-8--8--8-8-8--7--7-7-7--|-8--8-8-8-8--3-3-3-3-|-8--8-8-8-8--10-10-10-10-|
D|-0--0--0-0-0--0--0-0-0--|-8--8-8-8-8--3-3-3-3-|-8--8-8-8-8--10-10-10-10-|

(4x)
E|-----------------------------------------||---------------------------------------------|
B|-----------------------------------------||---------------------------------------------|
G|-----------------------------------------||---------------------------------------------|
D|-12-12-12--12-12-12--12-12-12--12-12-12--||----------7h8p7---------------------------5--|
A|-10-10-10--10-10-10--10-10-10--10-10-10--||--------8--------8-10-8-7---------5-3h5p3----|
D|-10-10-10--10-10-10--10-10-10--10-10-10--||-0-0-0-0-0------0-0--0-0-0-3-3-3-3-3-----3-3-|

(4x) (4x) E|-------------------------------------|--------------|---------------|
B|-------------------------------------|--------------|---------------|
G|-------------------------------------|--------------|---------------|
D|-------5--------7-------9--------10--|----------10--|------------5--|
A|-3h5p3----5h7p5---7h8p7---8h10p8-----|--8-8p7-------|----5-5p3------|
D|------3-3------5-5-----7-7------8--8-|-0-0---0-8--8-|-3-3-3---0-3-3-|


E|----------|----------|----------|------------|----------------------------|
B|----------|----------|----------|------------|----------------------------|
G|----------|----------|----------|------------|----------------------------|
D|-------5--|-------7--|-------9--|--------10--|-7h8p7-10---5h7p5------5--0-|
A|-3h5p3----|-5h7p5----|-7h8p7----|-8h10p8-----|-----------------5p3p0----0-|
D|------3-3-|------5-5-|------7-7-|-------8--8-|------8--8-0----------3-3-0-|

http://www.guitartabcreator.com
Guitar Tab Creator is intended to store guitar tab created through the tool. It currently does not support in-line text editing. Any text you place in here will be lost. If you need to comment on your tab, please use the "Tab Notes" section located below.