Bass2

(/) Slide Up  (\) Slide Down  (h) Hammer On  (p) Pull Off  (b) Bend (r) Release (v) Vibrato


F|-----------------------------|-------------------------------|--
C|-----------------------------|-------------------------------|--
G|---------10~-----------------|-------------------------------|--
C|--00-0-0~10~0~~-00-0-0-1~~3~~|--0-10-0-0-12-0-0-10-0-0-1~~3~~|--


F|-------------------------------------------------|-
C|-------------------------------------------------|-
G|---5------77778888---5------55558888777710101010-|-
C|-0---7-3~~---------0---7-3~~---------------------|-


F|-----------------------------------------------------------------|-
C|-----------------------------------------------------------------|-
G|---------------------------------7-----7---7---------7-----7---7-|-
C|--0-0-0-0-10-0-0-10-0-10-8-8-8-8---8-8---8---8-8-8-8---8-8---8---|-


F|------------------------------------------------|
C|------------------------------------------------|
G|---------10-----10---10-8-8-----12-8---12-8-12--|
C|-0-0-----10-0---10-0-10-8-8-----12-8---12-8-12--|









Guitar Tab Creator is intended to store guitar tab created through the tool. It currently does not support in-line text editing. Any text you place in here will be lost. If you need to comment on your tab, please use the "Tab Notes" section located below.