Bass Song 1

(/) Slide Up  (\) Slide Down  (h) Hammer On  (p) Pull Off  (b) Bend (r) Release (v) Vibrato

t t t t t t t t t t t t t t t t t t t t t t t t t
A|---------------5~~--------------5~~|----------------------------|
G|-----------2-2-3~~----------5-5-3--|----------------------------|
D|-----0h2h3------------0h2h3--------|----------------------3-3-3-|
E|-0-0--------------0-0--------------|--0-x-x-0-x-x-0-x-x-0-1-1-1-|
t t t t t t t t t t t t t t t t t t t t t t
G|---------------------------------------------|-
D|-------5-----------7-----------5-------------|-
A|-------3-----------5-----------3-------3-3-3-|-
E|-0-x-x---x-x-0-x-x---x-x-0-x-x---x-x-0-1-1-1-|-

t t t t t t t t t t t t t t t t p t t t t t t p t t ttt ttt ttt ttt
G|----------------5~~--------------5--|------------9---9~~----------9---11~--11--11--11--11|
D|------------2-2-3~~----------5-5-3--|----------------7~~--------------9~~99--99--99--99--|
A|------0h2h3------------0h2h3--------|------5/7-----0--------5/7-----7--------------------|
E|--0-0--------------0-0--------------|--5-5-----0--------5-5-----0------------------------|

t tt t t t s p t tt t t t s p t tt t t t tt t t t ttpttpttpttp t s
G|----------------9~---------------7~|-------------------9~~|--------------11/|
D|-----------------------------------|-------------------9~~|---x--x--x--x-9//|
A|----------0h5/7~~~---------0h3/5~~~|-------------------7~~|-----------------|
E|-0-xx-0-x---------0-xx-0-x---------|-0-xx-0-x-0-xx-0-x-0~~|-xx-xx-xx-xx-----|

t tt p t t t t t t t tt p t t t t t t t t t t t
G|----------------------5~|----------------------5~|---------------------|
D|------2-----------2-2-3~|------2-----------5-5-3~|-----------------5~~-|
A|----------0h2h3---------|----------0h2h3---------|-------------0h2/3~~-|
E|-0-xx---0-------0-------|-0-xx---0-------0-------|-0--x--0--x----------|


G|-------------------------|
D|-----------------------5-|
A|-------------------0h2/3-|
E|-0-xxx-0-xxx-0-xxx-------|

































Guitar Tab Creator is intended to store guitar tab created through the tool. It currently does not support in-line text editing. Any text you place in here will be lost. If you need to comment on your tab, please use the "Tab Notes" section located below.