Flickorna På TV2

INTRO
G|---------------7-------------------------------------7---------------------------
D|-----------7-------------------------------------7-------7-----------------------
A|-------5-----------------5---5---8---5-------5---------------5-------------------
E|---8-------------------------------------8-----------------------1---1---3---3--- X2


VERS
G|-----------------------------------------------------7---------------------------
D|-----------7---7---------------------------------7-------7-----------------------
A|-------5-----------5-----5---5---8---5-------5---------------5-------------------
E|-----------------------------------------8-----------------------1---1---3---3---



G|---------------7-------------------------------------7---------------------------
D|-----------7-------------------------------------7-------7-----------------------
A|-------5-----------------5---5---8---5-------5---------------5-------------------
E|-----------------------------------------8-----------------------1---1---3---3---



G|----------------------------------------------------------------------------------
D|---------------5---------5---5---8---5--------5-----------------------------------
A|-----------5------------------------------8-------5--------------1---2---3---4----
E|-------3------------------------------------------------3------3------------------


REFRÄNG
G|------------------------------------------------------------------
D|------------------------------------------------------------------
A|---3---1---1-------1---3---3-------3---5--------------------------
E|---------------3---------------5--------------------1---------3---



G|------------------------------------------------------------------
D|------------------------------------------------------------------
A|-------1---1-------1---3---3-------3---5--------------------------
E|---------------3---------------5--------------------1---------3---



G|------------------------------------------------------------------
D|------------------------------------------------------------------
A|-------1---1-----------3---3-----------5---5----------------------
E|----------------------------------------------------1---------3---



G|------------------------------------------------------------------
D|------------------------------------------------------------------
A|-------1---1-------1---3---3-------3---3---5----------------------
E|---------------3---------------5----------------------------------
http://www.guitartabcreator.com
Guitar Tab Creator is intended to store guitar tab created through the tool. It currently does not support in-line text editing. Any text you place in here will be lost. If you need to comment on your tab, please use the "Tab Notes" section located below.