A whole new world (uke)

(/) Slide Up  (\) Slide Down  (h) Hammer On  (p) Pull Off  (b) Bend (r) Release (v) Vibrato
E|--5-----5h6--5----------5-----5h6--5-----5--3--3--2--5--3--0--3h1--1p0--0--------1--1h3--1--5--
B|--6--8----------6-------6--8----------6--3--1--3-----2--------1---------1-----3-------------6--
G|--5----------------5----5----------------3--2--3-----2--------2---------2-----3-------------5--
D|--7---------------------7----------------3--3--0-----2--------3---------2--3----------------7--
A|-----------------------------------------------------------------------------------------------
E|-----------------------------------------------------------------------------------------------



E|--5--6--10--7----5--5--6--10--7-----6--5--5----5--6--8--12--10--8-----12--13--8--5-----------6--
B|------------5----6--6---------5--7--5-----6----6--------8-------6--6--12--13--6--6--8--6--8--6--
G|------------5----5--5---------5-----6-----7----5--------9-------7-------------7--5-----------7--
D|------------5----7--7---------5-----5-----7----7--------10------8-------------8--7-----------8--
A|------------------------------------------------------------------------------------------------
E|------------------------------------------------------------------------------------------------



E|--5--1--0--1--
B|-----------1--
G|-----------2--
D|-----------3--
A|--------------
E|--------------
http://www.guitartabcreator.com
Guitar Tab Creator is intended to store guitar tab created through the tool. It currently does not support in-line text editing. Any text you place in here will be lost. If you need to comment on your tab, please use the "Tab Notes" section located below.